ISO-10303-21;
HEADER;
FILE_DESCRIPTION (( 'STEP AP203' ),
    '1' );
FILE_NAME ('AL-HD14-5.1x10-3.17 Äèñòàíöèîííàÿ âòóëêà 5.1x10-3.17.STEP',
    '2024-12-12T13:48:14',
    ( '' ),
    ( '' ),
    'SwSTEP 2.0',
    'SolidWorks 2021',
    '' );
FILE_SCHEMA (( 'CONFIG_CONTROL_DESIGN' ));
ENDSEC;

DATA;
#1 = EDGE_CURVE ( 'NONE', #38, #249, #117, .T. ) ;
#2 = DIRECTION ( 'NONE',  ( 0.000000000000000000, 0.000000000000000000, 1.000000000000000000 ) ) ;
#3 = PLANE ( 'NONE',  #185 ) ;
#4 = DIRECTION ( 'NONE',  ( -0.000000000000000000, -0.000000000000000000, -1.000000000000000000 ) ) ;
#5 = MECHANICAL_CONTEXT ( 'NONE', #174, 'mechanical' ) ;
#6 = CIRCLE ( 'NONE', #111, 5.000000000000000000 ) ;
#7 = PERSON_AND_ORGANIZATION ( #92, #14 ) ;
#8 = EDGE_CURVE ( 'NONE', #79, #234, #74, .T. ) ;
#9 = CARTESIAN_POINT ( 'NONE',  ( 0.000000000000000000, 0.000000000000000000, 3.169999999999999929 ) ) ;
#10 = ADVANCED_BREP_SHAPE_REPRESENTATION ( 'AL-HD14-5.1x10-3.17 -ø¸ªðý¡øþýýð  òªºûúð 5.1x10-3.17', ( #183, #189 ), #160 ) ;
#11 = CALENDAR_DATE ( 2024, 12, 12 ) ;
#12 = SHAPE_DEFINITION_REPRESENTATION ( #140, #10 ) ;
#13 = CARTESIAN_POINT ( 'NONE',  ( 0.000000000000000000, 0.000000000000000000, 3.169999999999999929 ) ) ;
#14 = ORGANIZATION ( 'UNSPECIFIED', 'UNSPECIFIED', '' ) ;
#15 = APPROVAL_ROLE ( '' ) ;
#16 = APPROVAL ( #109, 'UNSPECIFIED' ) ;
#17 = ORIENTED_EDGE ( 'NONE', *, *, #1, .F. ) ;
#18 = CARTESIAN_POINT ( 'NONE',  ( 5.000000000000000000, 6.123233995736766282E-16, 3.169999999999999929 ) ) ;
#19 = LOCAL_TIME ( 16, 48, 14.00000000000000000, #201 ) ;
#20 = VERTEX_POINT ( 'NONE', #248 ) ;
#21 = EDGE_LOOP ( 'NONE', ( #75, #173 ) ) ;
#22 = EDGE_LOOP ( 'NONE', ( #154, #136 ) ) ;
#23 = CARTESIAN_POINT ( 'NONE',  ( 0.000000000000000000, 0.000000000000000000, 0.000000000000000000 ) ) ;
#24 = CARTESIAN_POINT ( 'NONE',  ( 0.000000000000000000, 0.000000000000000000, 3.169999999999999929 ) ) ;
#25 = CARTESIAN_POINT ( 'NONE',  ( -2.549999999999999822, 0.000000000000000000, 3.169999999999999929 ) ) ;
#26 = DIRECTION ( 'NONE',  ( 1.000000000000000000, 0.000000000000000000, 0.000000000000000000 ) ) ;
#27 = DIRECTION ( 'NONE',  ( -0.000000000000000000, -0.000000000000000000, -1.000000000000000000 ) ) ;
#28 = PERSON_AND_ORGANIZATION ( #92, #14 ) ;
#29 = SECURITY_CLASSIFICATION_LEVEL ( 'unclassified' ) ;
#30 = DIRECTION ( 'NONE',  ( -1.000000000000000000, 0.000000000000000000, 0.000000000000000000 ) ) ;
#31 = APPROVAL_PERSON_ORGANIZATION ( #52, #94, #244 ) ;
#32 = COORDINATED_UNIVERSAL_TIME_OFFSET ( 3, 0, .AHEAD. ) ;
#33 = CYLINDRICAL_SURFACE ( 'NONE', #53, 2.549999999999999822 ) ;
#34 = EDGE_CURVE ( 'NONE', #79, #38, #155, .T. ) ;
#35 = LOCAL_TIME ( 16, 48, 14.00000000000000000, #226 ) ;
#36 = EDGE_CURVE ( 'NONE', #214, #212, #247, .T. ) ;
#37 = AXIS2_PLACEMENT_3D ( 'NONE', #9, #2, #121 ) ;
#38 = VERTEX_POINT ( 'NONE', #156 ) ;
#39 = ORIENTED_EDGE ( 'NONE', *, *, #147, .T. ) ;
#40 = ORIENTED_EDGE ( 'NONE', *, *, #133, .F. ) ;
#41 = CC_DESIGN_PERSON_AND_ORGANIZATION_ASSIGNMENT ( #200, #225, ( #171 ) ) ;
#42 = CARTESIAN_POINT ( 'NONE',  ( 0.000000000000000000, 0.000000000000000000, 3.169999999999999929 ) ) ;
#43 = APPROVAL_PERSON_ORGANIZATION ( #68, #16, #88 ) ;
#44 = CC_DESIGN_APPROVAL ( #54, ( #171 ) ) ;
#45 = PLANE ( 'NONE',  #37 ) ;
#46 = DIRECTION ( 'NONE',  ( -0.000000000000000000, -0.000000000000000000, -1.000000000000000000 ) ) ;
#47 = DATE_AND_TIME ( #186, #67 ) ;
#48 = PERSON_AND_ORGANIZATION_ROLE ( 'design_owner' ) ;
#49 = AXIS2_PLACEMENT_3D ( 'NONE', #96, #78, #57 ) ;
#50 = PERSON_AND_ORGANIZATION ( #92, #14 ) ;
#51 = ADVANCED_FACE ( 'NONE', ( #233 ), #139, .F. ) ;
#52 = PERSON_AND_ORGANIZATION ( #92, #14 ) ;
#53 = AXIS2_PLACEMENT_3D ( 'NONE', #13, #27, #66 ) ;
#54 = APPROVAL ( #105, 'UNSPECIFIED' ) ;
#55 = VECTOR ( 'NONE', #46, 1000.000000000000000 ) ;
#56 = CC_DESIGN_PERSON_AND_ORGANIZATION_ASSIGNMENT ( #182, #125, ( #71 ) ) ;
#57 = DIRECTION ( 'NONE',  ( 1.000000000000000000, 0.000000000000000000, 0.000000000000000000 ) ) ;
#58 = DIRECTION ( 'NONE',  ( -0.000000000000000000, -0.000000000000000000, -1.000000000000000000 ) ) ;
#59 = ORIENTED_EDGE ( 'NONE', *, *, #77, .F. ) ;
#60 = CC_DESIGN_DATE_AND_TIME_ASSIGNMENT ( #131, #203, ( #100 ) ) ;
#61 = EDGE_LOOP ( 'NONE', ( #209, #230, #138, #59 ) ) ;
#62 = DIRECTION ( 'NONE',  ( 1.000000000000000000, 0.000000000000000000, 0.000000000000000000 ) ) ;
#63 = DIRECTION ( 'NONE',  ( 1.000000000000000000, 0.000000000000000000, -0.000000000000000000 ) ) ;
#64 = CLOSED_SHELL ( 'NONE', ( #51, #91, #124, #208, #240, #167 ) ) ;
#65 = DIRECTION ( 'NONE',  ( 0.000000000000000000, 0.000000000000000000, 1.000000000000000000 ) ) ;
#66 = DIRECTION ( 'NONE',  ( -1.000000000000000000, 0.000000000000000000, 0.000000000000000000 ) ) ;
#67 = LOCAL_TIME ( 16, 48, 14.00000000000000000, #32 ) ;
#68 = PERSON_AND_ORGANIZATION ( #92, #14 ) ;
#69 = CARTESIAN_POINT ( 'NONE',  ( 0.000000000000000000, 0.000000000000000000, 0.000000000000000000 ) ) ;
#70 = PERSON_AND_ORGANIZATION ( #92, #14 ) ;
#71 = SECURITY_CLASSIFICATION ( '', '', #29 ) ;
#72 = CC_DESIGN_PERSON_AND_ORGANIZATION_ASSIGNMENT ( #7, #90, ( #171 ) ) ;
#73 = LOCAL_TIME ( 16, 48, 14.00000000000000000, #224 ) ;
#74 = LINE ( 'NONE', #18, #149 ) ;
#75 = ORIENTED_EDGE ( 'NONE', *, *, #87, .T. ) ;
#76 = ORIENTED_EDGE ( 'NONE', *, *, #8, .T. ) ;
#77 = EDGE_CURVE ( 'NONE', #212, #97, #222, .T. ) ;
#78 = DIRECTION ( 'NONE',  ( 0.000000000000000000, 0.000000000000000000, 1.000000000000000000 ) ) ;
#79 = VERTEX_POINT ( 'NONE', #196 ) ;
#80 = CARTESIAN_POINT ( 'NONE',  ( 0.000000000000000000, 0.000000000000000000, 0.000000000000000000 ) ) ;
#81 = DIRECTION ( 'NONE',  ( 1.000000000000000000, 0.000000000000000000, 0.000000000000000000 ) ) ;
#82 = DIRECTION ( 'NONE',  ( -1.000000000000000000, 0.000000000000000000, 0.000000000000000000 ) ) ;
#83 = CARTESIAN_POINT ( 'NONE',  ( 2.549999999999999822, 3.122849337825750419E-16, 0.000000000000000000 ) ) ;
#84 = CIRCLE ( 'NONE', #166, 5.000000000000000000 ) ;
#85 = DIRECTION ( 'NONE',  ( 1.000000000000000000, 0.000000000000000000, 0.000000000000000000 ) ) ;
#86 = CALENDAR_DATE ( 2024, 12, 12 ) ;
#87 = EDGE_CURVE ( 'NONE', #38, #79, #211, .T. ) ;
#88 = APPROVAL_ROLE ( '' ) ;
#89 = AXIS2_PLACEMENT_3D ( 'NONE', #216, #179, #30 ) ;
#90 = PERSON_AND_ORGANIZATION_ROLE ( 'creator' ) ;
#91 = ADVANCED_FACE ( 'NONE', ( #101 ), #120, .T. ) ;
#92 = PERSON ( 'UNSPECIFIED', 'UNSPECIFIED', 'UNSPECIFIED', ('UNSPECIFIED'), ('UNSPECIFIED'), ('UNSPECIFIED') ) ;
#93 = ORIENTED_EDGE ( 'NONE', *, *, #137, .F. ) ;
#94 = APPROVAL ( #163, 'UNSPECIFIED' ) ;
#95 = CARTESIAN_POINT ( 'NONE',  ( -5.000000000000000000, 0.000000000000000000, 3.169999999999999929 ) ) ;
#96 = CARTESIAN_POINT ( 'NONE',  ( 0.000000000000000000, 0.000000000000000000, 3.169999999999999929 ) ) ;
#97 = VERTEX_POINT ( 'NONE', #159 ) ;
#98 = AXIS2_PLACEMENT_3D ( 'NONE', #24, #102, #82 ) ;
#99 = DIRECTION ( 'NONE',  ( 0.000000000000000000, 0.000000000000000000, 1.000000000000000000 ) ) ;
#100 = PRODUCT_DEFINITION ( 'UNKNOWN', '', #171, #199 ) ;
#101 = FACE_OUTER_BOUND ( 'NONE', #114, .T. ) ;
#102 = DIRECTION ( 'NONE',  ( -0.000000000000000000, -0.000000000000000000, -1.000000000000000000 ) ) ;
#103 = CYLINDRICAL_SURFACE ( 'NONE', #89, 5.000000000000000000 ) ;
#104 = AXIS2_PLACEMENT_3D ( 'NONE', #157, #142, #62 ) ;
#105 = APPROVAL_STATUS ( 'not_yet_approved' ) ;
#106 = CC_DESIGN_PERSON_AND_ORGANIZATION_ASSIGNMENT ( #70, #112, ( #100 ) ) ;
#107 = CARTESIAN_POINT ( 'NONE',  ( 0.000000000000000000, 0.000000000000000000, 0.000000000000000000 ) ) ;
#108 = DATE_AND_TIME ( #144, #206 ) ;
#109 = APPROVAL_STATUS ( 'not_yet_approved' ) ;
#110 = DIRECTION ( 'NONE',  ( 0.000000000000000000, 0.000000000000000000, 1.000000000000000000 ) ) ;
#111 = AXIS2_PLACEMENT_3D ( 'NONE', #23, #99, #236 ) ;
#112 = PERSON_AND_ORGANIZATION_ROLE ( 'creator' ) ;
#113 = ORIENTED_EDGE ( 'NONE', *, *, #34, .F. ) ;
#114 = EDGE_LOOP ( 'NONE', ( #113, #76, #213, #17 ) ) ;
#115 = AXIS2_PLACEMENT_3D ( 'NONE', #42, #119, #195 ) ;
#116 = EDGE_LOOP ( 'NONE', ( #93, #172 ) ) ;
#117 = LINE ( 'NONE', #95, #207 ) ;
#118 = ORIENTED_EDGE ( 'NONE', *, *, #169, .F. ) ;
#119 = DIRECTION ( 'NONE',  ( 0.000000000000000000, 0.000000000000000000, 1.000000000000000000 ) ) ;
#120 = CYLINDRICAL_SURFACE ( 'NONE', #98, 5.000000000000000000 ) ;
#121 = DIRECTION ( 'NONE',  ( 1.000000000000000000, 0.000000000000000000, -0.000000000000000000 ) ) ;
#122 = CC_DESIGN_SECURITY_CLASSIFICATION ( #71, ( #171 ) ) ;
#123 =( NAMED_UNIT ( * ) PLANE_ANGLE_UNIT ( ) SI_UNIT ( $, .RADIAN. ) );
#124 = ADVANCED_FACE ( 'NONE', ( #238, #197 ), #45, .T. ) ;
#125 = PERSON_AND_ORGANIZATION_ROLE ( 'classification_officer' ) ;
#126 = APPLICATION_PROTOCOL_DEFINITION ( 'international standard', 'config_control_design', 1994, #227 ) ;
#127 = APPROVAL_DATE_TIME ( #164, #54 ) ;
#128 = APPLICATION_PROTOCOL_DEFINITION ( 'international standard', 'config_control_design', 1994, #174 ) ;
#129 = DATE_AND_TIME ( #11, #73 ) ;
#130 = CARTESIAN_POINT ( 'NONE',  ( 0.000000000000000000, 0.000000000000000000, 3.169999999999999929 ) ) ;
#131 = DATE_AND_TIME ( #86, #35 ) ;
#132 = APPROVAL_PERSON_ORGANIZATION ( #50, #54, #15 ) ;
#133 = EDGE_CURVE ( 'NONE', #214, #20, #205, .T. ) ;
#134 = AXIS2_PLACEMENT_3D ( 'NONE', #130, #198, #204 ) ;
#135 = EDGE_LOOP ( 'NONE', ( #190, #175, #194, #245 ) ) ;
#136 = ORIENTED_EDGE ( 'NONE', *, *, #77, .T. ) ;
#137 = EDGE_CURVE ( 'NONE', #249, #234, #6, .T. ) ;
#138 = ORIENTED_EDGE ( 'NONE', *, *, #191, .T. ) ;
#139 = CYLINDRICAL_SURFACE ( 'NONE', #151, 2.549999999999999822 ) ;
#140 = PRODUCT_DEFINITION_SHAPE ( 'NONE', 'NONE',  #100 ) ;
#141 = CARTESIAN_POINT ( 'NONE',  ( 2.549999999999999822, 3.122849337825750419E-16, 3.169999999999999929 ) ) ;
#142 = DIRECTION ( 'NONE',  ( 0.000000000000000000, 0.000000000000000000, 1.000000000000000000 ) ) ;
#143 = CARTESIAN_POINT ( 'NONE',  ( 0.000000000000000000, 0.000000000000000000, 0.000000000000000000 ) ) ;
#144 = CALENDAR_DATE ( 2024, 12, 12 ) ;
#145 = VECTOR ( 'NONE', #231, 1000.000000000000000 ) ;
#146 = APPROVAL_DATE_TIME ( #129, #16 ) ;
#147 = EDGE_CURVE ( 'NONE', #20, #214, #242, .T. ) ;
#148 = DATE_TIME_ROLE ( 'classification_date' ) ;
#149 = VECTOR ( 'NONE', #58, 1000.000000000000000 ) ;
#150 = CC_DESIGN_PERSON_AND_ORGANIZATION_ASSIGNMENT ( #28, #48, ( #193 ) ) ;
#151 = AXIS2_PLACEMENT_3D ( 'NONE', #176, #4, #217 ) ;
#152 = ORIENTED_EDGE ( 'NONE', *, *, #191, .F. ) ;
#153 = CARTESIAN_POINT ( 'NONE',  ( 2.549999999999999822, 3.122849337825750419E-16, 3.169999999999999929 ) ) ;
#154 = ORIENTED_EDGE ( 'NONE', *, *, #169, .T. ) ;
#155 = CIRCLE ( 'NONE', #49, 5.000000000000000000 ) ;
#156 = CARTESIAN_POINT ( 'NONE',  ( -5.000000000000000000, 0.000000000000000000, 3.169999999999999929 ) ) ;
#157 = CARTESIAN_POINT ( 'NONE',  ( 0.000000000000000000, 0.000000000000000000, 3.169999999999999929 ) ) ;
#158 = LINE ( 'NONE', #25, #55 ) ;
#159 = CARTESIAN_POINT ( 'NONE',  ( -2.549999999999999822, 0.000000000000000000, 0.000000000000000000 ) ) ;
#160 =( GEOMETRIC_REPRESENTATION_CONTEXT ( 3 ) GLOBAL_UNCERTAINTY_ASSIGNED_CONTEXT ( ( #220 ) ) GLOBAL_UNIT_ASSIGNED_CONTEXT ( ( #239, #123, #177 ) ) REPRESENTATION_CONTEXT ( 'NONE', 'WORKASPACE' ) );
#161 = FACE_OUTER_BOUND ( 'NONE', #61, .T. ) ;
#162 = CARTESIAN_POINT ( 'NONE',  ( -5.000000000000000000, 0.000000000000000000, 0.000000000000000000 ) ) ;
#163 = APPROVAL_STATUS ( 'not_yet_approved' ) ;
#164 = DATE_AND_TIME ( #180, #19 ) ;
#165 = CARTESIAN_POINT ( 'NONE',  ( 5.000000000000000000, 6.123233995736766282E-16, 0.000000000000000000 ) ) ;
#166 = AXIS2_PLACEMENT_3D ( 'NONE', #69, #110, #85 ) ;
#167 = ADVANCED_FACE ( 'NONE', ( #161 ), #33, .F. ) ;
#168 = COORDINATED_UNIVERSAL_TIME_OFFSET ( 3, 0, .AHEAD. ) ;
#169 = EDGE_CURVE ( 'NONE', #97, #212, #215, .T. ) ;
#170 = DIRECTION ( 'NONE',  ( -0.000000000000000000, -0.000000000000000000, -1.000000000000000000 ) ) ;
#171 = PRODUCT_DEFINITION_FORMATION_WITH_SPECIFIED_SOURCE ( 'ANY', '', #193, .NOT_KNOWN. ) ;
#172 = ORIENTED_EDGE ( 'NONE', *, *, #188, .F. ) ;
#173 = ORIENTED_EDGE ( 'NONE', *, *, #34, .T. ) ;
#174 = APPLICATION_CONTEXT ( 'configuration controlled 3d designs of mechanical parts and assemblies' ) ;
#175 = ORIENTED_EDGE ( 'NONE', *, *, #87, .F. ) ;
#176 = CARTESIAN_POINT ( 'NONE',  ( 0.000000000000000000, 0.000000000000000000, 3.169999999999999929 ) ) ;
#177 =( NAMED_UNIT ( * ) SI_UNIT ( $, .STERADIAN. ) SOLID_ANGLE_UNIT ( ) );
#178 = AXIS2_PLACEMENT_3D ( 'NONE', #80, #65, #26 ) ;
#179 = DIRECTION ( 'NONE',  ( -0.000000000000000000, -0.000000000000000000, -1.000000000000000000 ) ) ;
#180 = CALENDAR_DATE ( 2024, 12, 12 ) ;
#181 = DIRECTION ( 'NONE',  ( 0.000000000000000000, 0.000000000000000000, 1.000000000000000000 ) ) ;
#182 = PERSON_AND_ORGANIZATION ( #92, #14 ) ;
#183 = MANIFOLD_SOLID_BREP ( 'Áîáûøêà-Âûòÿíóòü1', #64 ) ;
#184 = FACE_OUTER_BOUND ( 'NONE', #135, .T. ) ;
#185 = AXIS2_PLACEMENT_3D ( 'NONE', #107, #181, #63 ) ;
#186 = CALENDAR_DATE ( 2024, 12, 12 ) ;
#187 = ORIENTED_EDGE ( 'NONE', *, *, #147, .F. ) ;
#188 = EDGE_CURVE ( 'NONE', #234, #249, #84, .T. ) ;
#189 = AXIS2_PLACEMENT_3D ( 'NONE', #219, #243, #223 ) ;
#190 = ORIENTED_EDGE ( 'NONE', *, *, #8, .F. ) ;
#191 = EDGE_CURVE ( 'NONE', #20, #97, #158, .T. ) ;
#192 = EDGE_LOOP ( 'NONE', ( #39, #210, #118, #152 ) ) ;
#193 = PRODUCT ( 'AL-HD14-5.1x10-3.17 Äèñòàíöèîííàÿ âòóëêà 5.1x10-3.17', 'AL-HD14-5.1x10-3.17 Äèñòàíöèîííàÿ âòóëêà 5.1x10-3.17', '', ( #5 ) ) ;
#194 = ORIENTED_EDGE ( 'NONE', *, *, #1, .T. ) ;
#195 = DIRECTION ( 'NONE',  ( 1.000000000000000000, 0.000000000000000000, 0.000000000000000000 ) ) ;
#196 = CARTESIAN_POINT ( 'NONE',  ( 5.000000000000000000, 6.123233995736766282E-16, 3.169999999999999929 ) ) ;
#197 = FACE_BOUND ( 'NONE', #232, .T. ) ;
#198 = DIRECTION ( 'NONE',  ( 0.000000000000000000, 0.000000000000000000, 1.000000000000000000 ) ) ;
#199 = DESIGN_CONTEXT ( 'detailed design', #227, 'design' ) ;
#200 = PERSON_AND_ORGANIZATION ( #92, #14 ) ;
#201 = COORDINATED_UNIVERSAL_TIME_OFFSET ( 3, 0, .AHEAD. ) ;
#202 = FACE_BOUND ( 'NONE', #22, .T. ) ;
#203 = DATE_TIME_ROLE ( 'creation_date' ) ;
#204 = DIRECTION ( 'NONE',  ( 1.000000000000000000, 0.000000000000000000, 0.000000000000000000 ) ) ;
#205 = CIRCLE ( 'NONE', #115, 2.549999999999999822 ) ;
#206 = LOCAL_TIME ( 16, 48, 14.00000000000000000, #168 ) ;
#207 = VECTOR ( 'NONE', #170, 1000.000000000000000 ) ;
#208 = ADVANCED_FACE ( 'NONE', ( #237, #202 ), #3, .F. ) ;
#209 = ORIENTED_EDGE ( 'NONE', *, *, #36, .F. ) ;
#210 = ORIENTED_EDGE ( 'NONE', *, *, #36, .T. ) ;
#211 = CIRCLE ( 'NONE', #104, 5.000000000000000000 ) ;
#212 = VERTEX_POINT ( 'NONE', #83 ) ;
#213 = ORIENTED_EDGE ( 'NONE', *, *, #188, .T. ) ;
#214 = VERTEX_POINT ( 'NONE', #141 ) ;
#215 = CIRCLE ( 'NONE', #229, 2.549999999999999822 ) ;
#216 = CARTESIAN_POINT ( 'NONE',  ( 0.000000000000000000, 0.000000000000000000, 3.169999999999999929 ) ) ;
#217 = DIRECTION ( 'NONE',  ( -1.000000000000000000, 0.000000000000000000, 0.000000000000000000 ) ) ;
#218 = DIRECTION ( 'NONE',  ( 0.000000000000000000, 0.000000000000000000, 1.000000000000000000 ) ) ;
#219 = CARTESIAN_POINT ( 'NONE',  ( 0.000000000000000000, 0.000000000000000000, 0.000000000000000000 ) ) ;
#220 = UNCERTAINTY_MEASURE_WITH_UNIT (LENGTH_MEASURE( 1.000000000000000082E-05 ), #239, 'distance_accuracy_value', 'NONE');
#221 = PRODUCT_RELATED_PRODUCT_CATEGORY ( 'detail', '', ( #193 ) ) ;
#222 = CIRCLE ( 'NONE', #178, 2.549999999999999822 ) ;
#223 = DIRECTION ( 'NONE',  ( 1.000000000000000000, 0.000000000000000000, 0.000000000000000000 ) ) ;
#224 = COORDINATED_UNIVERSAL_TIME_OFFSET ( 3, 0, .AHEAD. ) ;
#225 = PERSON_AND_ORGANIZATION_ROLE ( 'design_supplier' ) ;
#226 = COORDINATED_UNIVERSAL_TIME_OFFSET ( 3, 0, .AHEAD. ) ;
#227 = APPLICATION_CONTEXT ( 'configuration controlled 3d designs of mechanical parts and assemblies' ) ;
#228 = CC_DESIGN_DATE_AND_TIME_ASSIGNMENT ( #47, #148, ( #71 ) ) ;
#229 = AXIS2_PLACEMENT_3D ( 'NONE', #143, #218, #81 ) ;
#230 = ORIENTED_EDGE ( 'NONE', *, *, #133, .T. ) ;
#231 = DIRECTION ( 'NONE',  ( -0.000000000000000000, -0.000000000000000000, -1.000000000000000000 ) ) ;
#232 = EDGE_LOOP ( 'NONE', ( #187, #40 ) ) ;
#233 = FACE_OUTER_BOUND ( 'NONE', #192, .T. ) ;
#234 = VERTEX_POINT ( 'NONE', #165 ) ;
#235 = CC_DESIGN_APPROVAL ( #94, ( #71 ) ) ;
#236 = DIRECTION ( 'NONE',  ( 1.000000000000000000, 0.000000000000000000, 0.000000000000000000 ) ) ;
#237 = FACE_OUTER_BOUND ( 'NONE', #116, .T. ) ;
#238 = FACE_OUTER_BOUND ( 'NONE', #21, .T. ) ;
#239 =( LENGTH_UNIT ( ) NAMED_UNIT ( * ) SI_UNIT ( .MILLI., .METRE. ) );
#240 = ADVANCED_FACE ( 'NONE', ( #184 ), #103, .T. ) ;
#241 = APPROVAL_DATE_TIME ( #108, #94 ) ;
#242 = CIRCLE ( 'NONE', #134, 2.549999999999999822 ) ;
#243 = DIRECTION ( 'NONE',  ( 0.000000000000000000, 0.000000000000000000, 1.000000000000000000 ) ) ;
#244 = APPROVAL_ROLE ( '' ) ;
#245 = ORIENTED_EDGE ( 'NONE', *, *, #137, .T. ) ;
#246 = CC_DESIGN_APPROVAL ( #16, ( #100 ) ) ;
#247 = LINE ( 'NONE', #153, #145 ) ;
#248 = CARTESIAN_POINT ( 'NONE',  ( -2.549999999999999822, 0.000000000000000000, 3.169999999999999929 ) ) ;
#249 = VERTEX_POINT ( 'NONE', #162 ) ;
ENDSEC;
END-ISO-10303-21;
